Воскресенье, 23.07.2017, 00:40
Приветствую Вас Гость | RSS
[SEARCH_TITLE]
[SEARCH_FORM]
Главная | Hypnogaja - Форум | Регистрация | Вход
Все для гитаристов и других музыкантов!!!
Форма входа
[ Новые сообщения · Участники · Правила форума · Поиск · RSS ]
Страница 1 из 11
Модератор форума: -=SxG=- 
Форум » Музыкальный форум » Подборки » Hypnogaja (Подборки песен группы Hypnogaja)
Hypnogaja
-=SxG=-Дата: Вторник, 04.05.2010, 11:26 | Сообщение # 1
Админ
Группа: Администраторы
Сообщений: 11
Награды: 4
Репутация: 105
Статус: Offline
Поскольку нигде в интернете не нарыл, то вот парочку подобрал)))

Не токльо адимнам зиомй бывеат ходолно... ©
 
-=SxG=-Дата: Вторник, 04.05.2010, 11:32 | Сообщение # 2
Админ
Группа: Администраторы
Сообщений: 11
Награды: 4
Репутация: 105
Статус: Offline
Hypnogaja - They Dont Care

В - удар медиатора вверх.
Н - удар медиатора вниз.


-|--Н В Н В---Н В Н В--В В----|--Н В Н В---Н В Н В--В В
G|---------------------------|---------------------------|
D|--2-2-2-2--2-2-2-2--2-2----|--3-3-3-3--3-3-3-3--3-3----|
A|--0-0-0-3--0-0 0-3--0-0----|--0-0-0-3--0-0-0-3--0-0----|
E|---------------------------|---------------------------|

-|--Н В Н В---Н В Н В--В В----|--Н В Н В---Н В Н В--В В
G|---------------------------|---------------------------|
D|--2-2-2-2--2-2-2-2--2-2----|--2--2-2---2-2-2-2--2-2----|
A|--0-0-0-3--0-0 0-3--0-0----|--5--5-5---3-3-3-3--3-3----|
E|---------------------------|---------------------------|

Чтото в этом роде... Подборка под акустическую версию песни. Ритм, думаю, подберете сами.:) Позже изменю, если подберу лучше.

Подобрано мной, -=SxG=-. =)


Не токльо адимнам зиомй бывеат ходолно... ©
 
-=SxG=-Дата: Вторник, 04.05.2010, 11:39 | Сообщение # 3
Админ
Группа: Администраторы
Сообщений: 11
Награды: 4
Репутация: 105
Статус: Offline
Hypnogaja - Home

Вступление, куплеты и партия второй гитары:


---Em---------------G(III)
e|-----------------------------------|
B|-----------------------------------|
G|--------0-----4---------4--- -7----|
D|-----2---- 2---------5-----5-------|
A|-----------------------------------|
E|--0---------------3----------------|

---Hm---------------A
e|------ ----------------------------|
B|-----------------------------------|
G|--------4-----6---------6-----9----|
D|-----4-----4--- -----7-----7-------|
A|--2--------------------------------|
E|------------------5----------------|

Em--------G----------------------Hm
It seems a hundred years have passed me
A
Alone on a road
It's been forever since I had
A place of my own
I've spent a thousand lifetimes
Searching for mine
It's been so hard to find

And it feels like I'm home
It's been a long road alone
And it feels like I'm free
It's been a long way to me

Now that the fight is fought and won
Now that the words are said and done
I see the fire inside
When I look into your eyes

And it feels like I'm home
It's been a long road alone
And it feels like I'm free
It's been a long way to me

I roamed far and wide
I didn't know if I'd live or die
I searched night and day
To find my way

Подобрано -=SxG=-. =)


Не токльо адимнам зиомй бывеат ходолно... ©
 
-=SxG=-Дата: Вторник, 04.05.2010, 11:56 | Сообщение # 4
Админ
Группа: Администраторы
Сообщений: 11
Награды: 4
Репутация: 105
Статус: Offline
Hypnogaja - Here Comes The Rain Again

Cm--------------------G#
Here comes the rain again, fallin' to my head like a memory,
A#
Fallin' to my head like a new emotion
Cm----------------------G#
I wanna walk in the open wind, i wanna talk like lovers do,
A#-----------------------Cm
I wanna dive into your ocean, is it rainin' with you?

Припев:
G#----------Cm
Talk to me, like lovers do.
G#-------------Cm
Walk with me, like lovers do.
G#-----------Cm
Talk to me, like lovers do.
G#----------A#
Yeeeeeeeeaaaaaaaahhhh....

Cm-G#-A#-Cm

(Те же аккорды)
Here comes the rain again, rainin' in my head like a tragedy,
And tearin' me apart like a new emotion.
I wanna breathe in the open wind, i wanna kiss like lovers do,
I wanna dive into your ocean, is it rainin' with you?

(Припев)

Cm
----Here is comes again.
G#
----Here it comes again, no.
Am------------------Cm
----Here it comes again.

Cm------------G#
Here it comes, here it comes again,
Am------------Cm
Noooooooooooohooooooooooooooooooo...

(Те же аккорды)
Here comes the rain again, fallin! to my head like a memory,
Fallin' to my head like a new emiotion,
Here it comes again, here it comes again.
I wanna walk in the open wind, i wanna talk like lovers do,
I wanna dive into your ocean, is it rainin' with you?

Here comes the rain again, rainin' in my head like a tragedy,
And tearin' me apart like a new emotion.
I wanna breathe in the open wind, i wanna kiss like lovers do,
I wanna dive into your ocean, is it rainin' with you....?


Не токльо адимнам зиомй бывеат ходолно... ©
 
Форум » Музыкальный форум » Подборки » Hypnogaja (Подборки песен группы Hypnogaja)
Страница 1 из 11
Поиск:

Адрес сайта http://sxgfiles.at.ua/
-=SxG=- & nimubus © 2009-2017
Хостинг от uCoz